Jesus, Oh Don't You Know?
 2003 by Brother Bear

Intro
C F C F

Chorus
C     F               C
Jesus, oh don't you know?
C     F               C
Jesus, oh don't you know?
F                         C
 That you turned my life around.
F                 C
 Turned my life around.

Verse 1
CM7 FM7                CM7
Once I was afraid to smile;
FM7             CM7         Am
 Didn't want to break the shell
Dm       D       G    GM7 G7 G
 built around my life.

Chorus
    C     F               C
But Jesus, oh don't you know?
C     F               C
Jesus, oh don't you know?
F                         C
 That you turned my life around.
F                    C
 Made a smile from a frown.

Verse 2
CM7 FM7                CM7
Once I was afraid to touch;
FM7             CM7         Am
 Couldn't take a brother's hug;
Dm       D       G    GM7 G7 G
 Thought I was to tough.

Chorus
    C     F               C
But Jesus, oh don't you know?
C     F               C
Jesus, oh don't you know?
F                         C
 That you turned my life around.
F                   C
 Made me huggy fuzzy brown.

Verse 3
CM7 FM7                      CM7
Once I had to make a cutting joke.
FM7              CM7       Am
 Had to show the other's shame.
Dm                  D    G    GM7 G7 G
 And, no you're not the same.

Chorus
    C     F               C
But Jesus, oh don't you know?
C     F               C
Jesus, oh don't you know?
F                         C
 That you turned my life around.
F                         F
 Don't put the other man down.



Guitar Tablature
h=hammer off, v=down strum, ^=up strum

Verse

   CM7      FM7      CM7      FM7
                  h                 h
  |---0----|--0--1--|---0----|--0--1--
4 |0----0-0|--1--1--|0----0-0|--1--1--
_ |--0---0-|-2-2--2-|--0---0-|-2-2--2-
  |--------|3---3--3|--------|3---3--3
4 |3-------|--------|3-------|--------
  |--------|--------|--------|--------
   1 2 3 4  1 2 3 4  1 2 3 4  1 2 3 4 


   C   Am   Dm  D    G        G
  |--0----0|--1--2--|3--2--1-|--------
4 |1--1-1--|---3--3-|-0--0--0|3--3----
_ |-0----2-|-2-----2|--0--0--|--0-----
  |--------|0---0---|--------|------0-
4 |3---0---|--------|--------|-----2-2
  |--------|--------|3-------|3---3---
   1 2 3 4  1 2 3 4  1 2 3 4  1 2 3 4 


Chorus
   C        F        C        F
                  h                 h
  |---0----|--1-----|0----0--|--1--31-
4 |---1----|--1--31-|1----1--|--1--1--
_ |--0--0-0|-2-2---2|--0---0-|-2-----2
  |------2-|3-------|-------2|3-------
4 |3-------|--------|3--3----|--------
  |--------|--------|--------|--------
   1 2 3 4  1 2 3 4  1 2 3 4  1 2 3 4 


   C        F        C        F
                  h                 h
  |0--0----|--1-----|0----0--|--1--31-
4 |1--1----|--1--31-|1----1--|--1--1--
_ |-0---0-0|-2-2---2|--0---0-|-2-----2
  |------2-|3-------|-------2|3-------
4 |3-3-----|--------|3--3----|--------
  |--------|--------|--------|--------
   1 2 3 4  1 2 3 4  1 2 3 4  1 2 3 4 


4  C                F                C                F
_ |v  ^v v  ^v ^ v |v  ^v v  ^v ^ v |v  ^v v  ^v ^ v |v  ^v v  ^v ^ v
  |1---2---3---4---|1---2---3---4---|1---2---3---4---|1---2---3---4---
4   (strumming)






		

   Want us to sing and speak
   at your Church or event?
   Please contact me.
Brother Bear
1312 New Life
Rochester, MI 48309
BrotherBear@BrotherBear.org
(248)656-7000
RSS FeedYouTubeTwitterFacebook